Форма входа
Поиск
Концертный график
  • 28 сентября - Санкт-Петербург
  • 29 сентября - Санкт-Петербург
  • 30 сентября - Москва
  • 12 октября - Ижевск
  • 14 октября - Нижний Новгород
  • 17 октября - Донецк
  • 18 октября - Харьков
  • 19 октября - Кривой Рог
  • 20 октября - Днепропетровск
  • 26 октября - Минск

> Подробнее <

Yes Future!
Просмотров: 4188
Информация
Название Yes Future!
Альбом Новый альбом
Дата выпуска 2012
Аудио
Битрейт 320 кбит в сек
Продолжительность 03:08
Формат .mp3
Размер 7,28 МБ
Скачать Скачать
Текст песни

Слушай мой прогноз, человечество:
Отменяются все катаклизмы,
Все больные успешно излечатся,
Вымрут вредные микроорганизмы,
Пришельцы нагрянут не с целью экспансии,
А чтобы забрать ядерные отходы,
Для безработных найдутся вакансии,
В Питере будет классная погода.
Кто-то хороший у власти окажется
И все наладит нежданно-негаданно
Гадов накажет, никто не отмажется,
Все ожидания будут оправданы.
Никаких вооруженных конфликтов,
В МВД будут одни дяди Степы
И на каждого квадратных метров с избытком
Всё всерьёз, никакого стёба.
Что, не верится в мой прогноз?
Типа, звучит не реалистично?
Спецом для тебя будет полный пиздос,
У всех остальных всё будет отлично!

Миллионы праворульных Жигулей
Заполнят пространство японских хайвеев
Россия впереди планеты всей,
No future - это не наша идея
Нам скоро стопудовой повезет,
Свежий ветер разгонит все чёрные тучи,
Все черти кадилом по морде получат
Yes future! Yes! Yes future...

Слушай мой прогноз, человечество
Я в будущее смотрю с оптимизмом
РПЦ совладает с нечисть,
У православных отсосут сатанисты.
Дьявол признает ошибки прошлого,
Папа простит и вернет на небо.
Вместо пустого, пошлого, ложного -
Правда реальная, как буханка хлеба
Волшебник в голубом вертолете
Давно взлетел и вот-вот прибудет,
Ему тут км всего пару сотен
Скорее сюда все, кто мечтал о чуде.
Ты говоришь, это все невозможно?
Нахуй иди, я тебя не спрашивал.
Мне от вас, пессимистов, тошно
Все беды из-за нытья ебучего вашего

Миллионы праворульных Жигулей
Заполнят пространство японских хайвеев
Россия впереди планеты всей,
No future - это не наша идея
Нам скоро стопудовой повезет,
Свежий ветер разгонит все чёрные тучи,
Все черти кадилом по морде получат
Yes future! Yes! Yes future...

Аккорды

F# A D Hm (всю песню)

интро
2|-----------------------------------------------------------------------------------------|
3|----------11--9--11----------11--9--11-------------------11--9--11-------------------|
4|------11---------------11--------------------11--------11----------------11--------------|
5|---9-------------------------0-------------------------------------------------------------------------|
6|-----------------------------------------------------10--------------------------------------------|

2|---------------------------------------------------------------------|
3|----------7--9---7----------------------------------------------------|
4|---------7---9---7-------------------------------------------------------|
5|------------------------------------------------------------------------|
6|-----7--------------------------------------------------------------|
Powered © Fan-NoizeMc, 2012